In My Life
The Beatles (Lennon/McCartney, 1965)



   C           G      C           G
A|---3-------|-2----|---3-------|-2
E|-0---0-1-3-|-3----|-0---0-1-3-|-3
C|-0---------|-2----|-0---------|-2
G|-----------|-0----|-----------|-0


There are [C] places [Em7] I'll re- [Am] member [C7]
All my [F] li- [Fm] -ife though [C] some have changed
Some for- [C] ever [Em7] not for [Am] better [C7]
Some have [F] go- [Fm] -one and [C] some remain

All these [Am] places had their [F] moments
With [Bb] lovers and friends, I [C] still can recall
Some are [Am] dead and some are [D] living
In [Fm] my life, I've [C] loved them all


   C           G
A|---3-------|-2----
E|-0---0-1-3-|-3----
C|-0---------|-2----
G|-----------|-0----


But of [C] all these [Em7] friends and [Am] lovers [C7]
There is [F] no [Fm] one com- [C] pares with you
And these [C] memories [Em7] lose their [Am] meaning [C7]
When I [F] think of [Fm] love as [C] something new

Though I [Am] know I'll never lose af- [F] fection
For [Bb] people and things, that [C] went before
I [Am] know I'll often stop and think a- [D] bout them
In [Fm] my life, I'll [C] love you more

Instrumental
| [C] [G]   | [Am] [C7]   | [F] [Fm] | [C]   |
| [C] [G]   | [Am] [C7]   | [F] [Fm] | [C]   |

Though I [Am] know I'll never lose af- [F] fection
For [Bb] people and things, that [C] went before
I [Am] know I'll often stop and think a- [D] bout them
In [Fm] my life, I'll [C] love you more


   C           G
A|---3-------|-2----
E|-0---0-1-3-|-3----
C|-0---------|-2----
G|-----------|-0----

In [Fm] my life, I'll [C] love you more

   C           G       C↓
A|---3-------|-2-----|-3
E|-0---0-1-3-|-3-----|-0
C|-0---------|-2-----|-0
G|-----------|-0-----|-0


#Original in key of A but it works well on the ukulele in key of C.

#Last Updated 11/01/19 JJ
Visit UkeboxLessons